Che Lu Ta Dhi

Tuning - Standard (eBGDAE)

Intro...

   C           C           Am          Am
E|-----3-0---------3-0---------3-0---------3-0-----|
B|-1-1-----3---1-1-----3---1-1-----3---1-1-----3---|
G|-------------------------------------------------|
D|-------------------------------------------------|
A|-3-3---------3-3---------0-0---------0-0---------|
E|-------------------------------------------------|

   F            G           C             C
E|-----3-0----------3-0---------3-0----------------|
B|-1-1-----3----1-1-----3---1-1-----3---1----------|
G|-------------------------------------------------|
D|-3-3---------------------------------------------|
A|--------------------------3-3---------3----------|
E|--------------3-3--------------------------------|


C               Am
Choe lu ta dhi dhey bi say
F              C
Nge gi sem ya jang dha yee
C               Am
Choe lu gu dhi dhey bi say
F              C
Nge gi me tsay zo ya see
C            C
La la la la la....
C            Am
La la la la la....

C                Am
Bum choe noo wei bu tsu dhi
    F              C
Bu nge gi choe lu bay jin gay
    C             Am
Nam so khai dhama ma bew lay
      F              C
Choe ngee ge en say lab na mae

C               G
Choe lu ga wei sem dhi mo
Am            C
Nam ya zo ne mindhu sa
C                 G 
Choe dha dhey be rewa dhi
Am            C
Nam ya zo ne mindhu sa

C          G
Choe ga ge mo
F        C
Nga ma shay
C            G
Nam ya zo ni me
F               C
Choe lu ga wei sem

C               Am
Choe lu ta dhi dhey bi say
F              C
Nge gi sem ya jang dha yee
C               Am
Choe lu gu dhi dhey bi say
F              C
Nge gi me tsay zo ya see
C            C
La la la la la....
C            Am
La la la la la....

C                Am
Bum choe noo wei bu tsu dhi
    F              C
Bu nge gi choe lu bay jin gay
    C             Am
Nam so khai dhama ma bew lay
      F              C
Choe ngee ge en say lab na mae

C               G
Choe lu ga wei sem dhi mo
Am            C
Nam ya zo ne mindhu sa
C                 G 
Choe dha dhey be rewa dhi
Am            C
Nam ya zo ne mindhu sa

C          G
Choe ga ge mo
F        C
Nga ma shay
C            G
Nam ya zo ni me
F               C
Choe lu ga wei sem

C          G
Choe ga ge mo
F        C
Nga ma shay
C            G
Nam ya zo ni me
F               C
Choe lu ga wei sem